ISO-10303-21;
HEADER;
/* Generated by software containing ST-Developer
 * from STEP Tools, Inc. (www.steptools.com) 
 */

FILE_DESCRIPTION(
/* description */ ('Kolbenstange'),
/* implementation_level */ '2;1');

FILE_NAME(
/* name */ 
'O:\\Gasfedershop\\CAD\\CAD GF-Shop Stahl+VA\\Gasfedern_stp\\Gasfedern
_stp\\Gasdruckfeder 8-19 Hub 220.stp',
/* time_stamp */ '2018-11-13T13:55:18+01:00',
/* author */ ('dlamberti'),
/* organization */ ('Hahn-Gasfedern GmbH'),
/* preprocessor_version */ 'ST-DEVELOPER v16.1',
/* originating_system */ 'Autodesk Inventor 2016',
/* authorisation */ '');

FILE_SCHEMA (('AUTOMOTIVE_DESIGN { 1 0 10303 214 3 1 1 }'));
ENDSEC;

DATA;
#10=MECHANICAL_DESIGN_GEOMETRIC_PRESENTATION_REPRESENTATION('',(#35,#36,
#37,#38,#39,#40,#41,#42,#43,#44),#420);
#11=ITEM_DEFINED_TRANSFORMATION($,$,#227,#266);
#12=ITEM_DEFINED_TRANSFORMATION($,$,#233,#267);
#13=ITEM_DEFINED_TRANSFORMATION($,$,#241,#268);
#14=(
REPRESENTATION_RELATIONSHIP($,$,#438,#441)
REPRESENTATION_RELATIONSHIP_WITH_TRANSFORMATION(#11)
SHAPE_REPRESENTATION_RELATIONSHIP()
);
#15=(
REPRESENTATION_RELATIONSHIP($,$,#439,#441)
REPRESENTATION_RELATIONSHIP_WITH_TRANSFORMATION(#12)
SHAPE_REPRESENTATION_RELATIONSHIP()
);
#16=(
REPRESENTATION_RELATIONSHIP($,$,#440,#441)
REPRESENTATION_RELATIONSHIP_WITH_TRANSFORMATION(#13)
SHAPE_REPRESENTATION_RELATIONSHIP()
);
#17=CONTEXT_DEPENDENT_SHAPE_REPRESENTATION(#14,#435);
#18=CONTEXT_DEPENDENT_SHAPE_REPRESENTATION(#15,#436);
#19=CONTEXT_DEPENDENT_SHAPE_REPRESENTATION(#16,#437);
#20=NEXT_ASSEMBLY_USAGE_OCCURRENCE('ENG-001076:1','ENG-001076:1',
'ENG-001076:1',#446,#443,'ENG-001076:1');
#21=NEXT_ASSEMBLY_USAGE_OCCURRENCE('Gew-04:1','Gew-04:1','Gew-04:1',#446,
#444,'Gew-04:1');
#22=NEXT_ASSEMBLY_USAGE_OCCURRENCE('ROH_-X-00161-EM:1',
'ROH_-X-00161-EM:1','ROH_-X-00161-EM:1',#446,#445,'ROH_-X-00161-EM:1');
#23=TOROIDAL_SURFACE('',#256,4.9499999999966,4.55);
#24=TOROIDAL_SURFACE('',#260,4.95000000000235,4.55);
#25=CONICAL_SURFACE('',#234,3.6,44.9999999999999);
#26=CONICAL_SURFACE('',#242,3.56698729810781,30.);
#27=CONICAL_SURFACE('',#254,6.56301914107406,45.0000080218261);
#28=CONICAL_SURFACE('',#262,6.56301505008593,45.0003558079865);
#29=SHAPE_REPRESENTATION_RELATIONSHIP('SRR','None',#438,#32);
#30=SHAPE_REPRESENTATION_RELATIONSHIP('SRR','None',#439,#33);
#31=SHAPE_REPRESENTATION_RELATIONSHIP('SRR','None',#440,#34);
#32=ADVANCED_BREP_SHAPE_REPRESENTATION('',(#45),#416);
#33=ADVANCED_BREP_SHAPE_REPRESENTATION('',(#46),#417);
#34=ADVANCED_BREP_SHAPE_REPRESENTATION('',(#47),#418);
#35=STYLED_ITEM('',(#462),#45);
#36=STYLED_ITEM('',(#462),#208);
#37=STYLED_ITEM('',(#462),#209);
#38=STYLED_ITEM('',(#462),#210);
#39=STYLED_ITEM('',(#462),#211);
#40=STYLED_ITEM('',(#462),#46);
#41=STYLED_ITEM('',(#464),#212);
#42=STYLED_ITEM('',(#464),#213);
#43=STYLED_ITEM('',(#464),#214);
#44=STYLED_ITEM('',(#463),#47);
#45=MANIFOLD_SOLID_BREP('Volumenk\X\F6rper1',#224);
#46=MANIFOLD_SOLID_BREP('Volumenk\X\F6rper1',#225);
#47=MANIFOLD_SOLID_BREP('Volumenk\X\F6rper1',#226);
#48=FACE_BOUND('',#89,.T.);
#49=FACE_BOUND('',#91,.T.);
#50=FACE_BOUND('',#93,.T.);
#51=FACE_BOUND('',#97,.T.);
#52=FACE_BOUND('',#99,.T.);
#53=FACE_BOUND('',#102,.T.);
#54=FACE_BOUND('',#105,.T.);
#55=FACE_BOUND('',#107,.T.);
#56=FACE_BOUND('',#109,.T.);
#57=FACE_BOUND('',#111,.T.);
#58=FACE_BOUND('',#113,.T.);
#59=FACE_BOUND('',#115,.T.);
#60=FACE_BOUND('',#117,.T.);
#61=CYLINDRICAL_SURFACE('',#232,4.00000000000001);
#62=CYLINDRICAL_SURFACE('',#237,4.);
#63=CYLINDRICAL_SURFACE('',#245,4.);
#64=CYLINDRICAL_SURFACE('',#252,6.90000000000001);
#65=CYLINDRICAL_SURFACE('',#258,9.49999999999915);
#66=CYLINDRICAL_SURFACE('',#264,6.90000000000287);
#67=FACE_OUTER_BOUND('',#86,.T.);
#68=FACE_OUTER_BOUND('',#87,.T.);
#69=FACE_OUTER_BOUND('',#88,.T.);
#70=FACE_OUTER_BOUND('',#90,.T.);
#71=FACE_OUTER_BOUND('',#92,.T.);
#72=FACE_OUTER_BOUND('',#94,.T.);
#73=FACE_OUTER_BOUND('',#95,.T.);
#74=FACE_OUTER_BOUND('',#96,.T.);
#75=FACE_OUTER_BOUND('',#98,.T.);
#76=FACE_OUTER_BOUND('',#100,.T.);
#77=FACE_OUTER_BOUND('',#101,.T.);
#78=FACE_OUTER_BOUND('',#103,.T.);
#79=FACE_OUTER_BOUND('',#104,.T.);
#80=FACE_OUTER_BOUND('',#106,.T.);
#81=FACE_OUTER_BOUND('',#108,.T.);
#82=FACE_OUTER_BOUND('',#110,.T.);
#83=FACE_OUTER_BOUND('',#112,.T.);
#84=FACE_OUTER_BOUND('',#114,.T.);
#85=FACE_OUTER_BOUND('',#116,.T.);
#86=EDGE_LOOP('',(#166));
#87=EDGE_LOOP('',(#167));
#88=EDGE_LOOP('',(#168));
#89=EDGE_LOOP('',(#169));
#90=EDGE_LOOP('',(#170));
#91=EDGE_LOOP('',(#171));
#92=EDGE_LOOP('',(#172));
#93=EDGE_LOOP('',(#173));
#94=EDGE_LOOP('',(#174));
#95=EDGE_LOOP('',(#175));
#96=EDGE_LOOP('',(#176));
#97=EDGE_LOOP('',(#177));
#98=EDGE_LOOP('',(#178));
#99=EDGE_LOOP('',(#179));
#100=EDGE_LOOP('',(#180));
#101=EDGE_LOOP('',(#181));
#102=EDGE_LOOP('',(#182));
#103=EDGE_LOOP('',(#183));
#104=EDGE_LOOP('',(#184));
#105=EDGE_LOOP('',(#185));
#106=EDGE_LOOP('',(#186));
#107=EDGE_LOOP('',(#187));
#108=EDGE_LOOP('',(#188));
#109=EDGE_LOOP('',(#189));
#110=EDGE_LOOP('',(#190));
#111=EDGE_LOOP('',(#191));
#112=EDGE_LOOP('',(#192));
#113=EDGE_LOOP('',(#193));
#114=EDGE_LOOP('',(#194));
#115=EDGE_LOOP('',(#195));
#116=EDGE_LOOP('',(#196));
#117=EDGE_LOOP('',(#197));
#118=CIRCLE('',#229,4.00000000000002);
#119=CIRCLE('',#231,3.99999999999999);
#120=CIRCLE('',#235,4.);
#121=CIRCLE('',#236,3.2);
#122=CIRCLE('',#238,4.);
#123=CIRCLE('',#243,4.);
#124=CIRCLE('',#244,3.13397459621561);
#125=CIRCLE('',#246,4.);
#126=CIRCLE('',#249,6.90000000000287);
#127=CIRCLE('',#251,6.9);
#128=CIRCLE('',#253,6.90000000000001);
#129=CIRCLE('',#255,6.2260382821481);
#130=CIRCLE('',#257,9.4999999999966);
#131=CIRCLE('',#259,9.5000000000017);
#132=CIRCLE('',#261,6.22603010016898);
#133=CIRCLE('',#263,6.90000000000287);
#134=VERTEX_POINT('',#355);
#135=VERTEX_POINT('',#358);
#136=VERTEX_POINT('',#363);
#137=VERTEX_POINT('',#365);
#138=VERTEX_POINT('',#368);
#139=VERTEX_POINT('',#374);
#140=VERTEX_POINT('',#376);
#141=VERTEX_POINT('',#379);
#142=VERTEX_POINT('',#383);
#143=VERTEX_POINT('',#386);
#144=VERTEX_POINT('',#389);
#145=VERTEX_POINT('',#392);
#146=VERTEX_POINT('',#395);
#147=VERTEX_POINT('',#398);
#148=VERTEX_POINT('',#401);
#149=VERTEX_POINT('',#404);
#150=EDGE_CURVE('',#134,#134,#118,.T.);
#151=EDGE_CURVE('',#135,#135,#119,.T.);
#152=EDGE_CURVE('',#136,#136,#120,.T.);
#153=EDGE_CURVE('',#137,#137,#121,.T.);
#154=EDGE_CURVE('',#138,#138,#122,.T.);
#155=EDGE_CURVE('',#139,#139,#123,.T.);
#156=EDGE_CURVE('',#140,#140,#124,.T.);
#157=EDGE_CURVE('',#141,#141,#125,.T.);
#158=EDGE_CURVE('',#142,#142,#126,.T.);
#159=EDGE_CURVE('',#143,#143,#127,.T.);
#160=EDGE_CURVE('',#144,#144,#128,.T.);
#161=EDGE_CURVE('',#145,#145,#129,.T.);
#162=EDGE_CURVE('',#146,#146,#130,.T.);
#163=EDGE_CURVE('',#147,#147,#131,.T.);
#164=EDGE_CURVE('',#148,#148,#132,.T.);
#165=EDGE_CURVE('',#149,#149,#133,.T.);
#166=ORIENTED_EDGE('',*,*,#150,.T.);
#167=ORIENTED_EDGE('',*,*,#151,.F.);
#168=ORIENTED_EDGE('',*,*,#150,.F.);
#169=ORIENTED_EDGE('',*,*,#151,.T.);
#170=ORIENTED_EDGE('',*,*,#152,.T.);
#171=ORIENTED_EDGE('',*,*,#153,.T.);
#172=ORIENTED_EDGE('',*,*,#154,.T.);
#173=ORIENTED_EDGE('',*,*,#152,.F.);
#174=ORIENTED_EDGE('',*,*,#153,.F.);
#175=ORIENTED_EDGE('',*,*,#154,.F.);
#176=ORIENTED_EDGE('',*,*,#155,.T.);
#177=ORIENTED_EDGE('',*,*,#156,.T.);
#178=ORIENTED_EDGE('',*,*,#157,.F.);
#179=ORIENTED_EDGE('',*,*,#155,.F.);
#180=ORIENTED_EDGE('',*,*,#156,.F.);
#181=ORIENTED_EDGE('',*,*,#158,.T.);
#182=ORIENTED_EDGE('',*,*,#157,.T.);
#183=ORIENTED_EDGE('',*,*,#159,.F.);
#184=ORIENTED_EDGE('',*,*,#160,.F.);
#185=ORIENTED_EDGE('',*,*,#159,.T.);
#186=ORIENTED_EDGE('',*,*,#161,.F.);
#187=ORIENTED_EDGE('',*,*,#160,.T.);
#188=ORIENTED_EDGE('',*,*,#162,.F.);
#189=ORIENTED_EDGE('',*,*,#161,.T.);
#190=ORIENTED_EDGE('',*,*,#163,.F.);
#191=ORIENTED_EDGE('',*,*,#162,.T.);
#192=ORIENTED_EDGE('',*,*,#164,.F.);
#193=ORIENTED_EDGE('',*,*,#163,.T.);
#194=ORIENTED_EDGE('',*,*,#165,.F.);
#195=ORIENTED_EDGE('',*,*,#164,.T.);
#196=ORIENTED_EDGE('',*,*,#158,.F.);
#197=ORIENTED_EDGE('',*,*,#165,.T.);
#198=PLANE('',#228);
#199=PLANE('',#230);
#200=PLANE('',#239);
#201=PLANE('',#240);
#202=PLANE('',#247);
#203=PLANE('',#248);
#204=PLANE('',#250);
#205=ADVANCED_FACE('',(#67),#198,.T.);
#206=ADVANCED_FACE('',(#68),#199,.T.);
#207=ADVANCED_FACE('',(#69,#48),#61,.T.);
#208=ADVANCED_FACE('',(#70,#49),#25,.T.);
#209=ADVANCED_FACE('',(#71,#50),#62,.T.);
#210=ADVANCED_FACE('',(#72),#200,.T.);
#211=ADVANCED_FACE('',(#73),#201,.T.);
#212=ADVANCED_FACE('',(#74,#51),#26,.T.);
#213=ADVANCED_FACE('',(#75,#52),#63,.T.);
#214=ADVANCED_FACE('',(#76),#202,.T.);
#215=ADVANCED_FACE('',(#77,#53),#203,.T.);
#216=ADVANCED_FACE('',(#78),#204,.T.);
#217=ADVANCED_FACE('',(#79,#54),#64,.T.);
#218=ADVANCED_FACE('',(#80,#55),#27,.T.);
#219=ADVANCED_FACE('',(#81,#56),#23,.T.);
#220=ADVANCED_FACE('',(#82,#57),#65,.T.);
#221=ADVANCED_FACE('',(#83,#58),#24,.T.);
#222=ADVANCED_FACE('',(#84,#59),#28,.T.);
#223=ADVANCED_FACE('',(#85,#60),#66,.T.);
#224=CLOSED_SHELL('',(#205,#206,#207));
#225=CLOSED_SHELL('',(#208,#209,#210,#211));
#226=CLOSED_SHELL('',(#212,#213,#214,#215,#216,#217,#218,#219,#220,#221,
#222,#223));
#227=AXIS2_PLACEMENT_3D('placement',#353,#269,#270);
#228=AXIS2_PLACEMENT_3D('',#354,#271,#272);
#229=AXIS2_PLACEMENT_3D('',#356,#273,#274);
#230=AXIS2_PLACEMENT_3D('',#357,#275,#276);
#231=AXIS2_PLACEMENT_3D('',#359,#277,#278);
#232=AXIS2_PLACEMENT_3D('',#360,#279,#280);
#233=AXIS2_PLACEMENT_3D('placement',#361,#281,#282);
#234=AXIS2_PLACEMENT_3D('',#362,#283,#284);
#235=AXIS2_PLACEMENT_3D('',#364,#285,#286);
#236=AXIS2_PLACEMENT_3D('',#366,#287,#288);
#237=AXIS2_PLACEMENT_3D('',#367,#289,#290);
#238=AXIS2_PLACEMENT_3D('',#369,#291,#292);
#239=AXIS2_PLACEMENT_3D('',#370,#293,#294);
#240=AXIS2_PLACEMENT_3D('',#371,#295,#296);
#241=AXIS2_PLACEMENT_3D('placement',#372,#297,#298);
#242=AXIS2_PLACEMENT_3D('',#373,#299,#300);
#243=AXIS2_PLACEMENT_3D('',#375,#301,#302);
#244=AXIS2_PLACEMENT_3D('',#377,#303,#304);
#245=AXIS2_PLACEMENT_3D('',#378,#305,#306);
#246=AXIS2_PLACEMENT_3D('',#380,#307,#308);
#247=AXIS2_PLACEMENT_3D('',#381,#309,#310);
#248=AXIS2_PLACEMENT_3D('',#382,#311,#312);
#249=AXIS2_PLACEMENT_3D('',#384,#313,#314);
#250=AXIS2_PLACEMENT_3D('',#385,#315,#316);
#251=AXIS2_PLACEMENT_3D('',#387,#317,#318);
#252=AXIS2_PLACEMENT_3D('',#388,#319,#320);
#253=AXIS2_PLACEMENT_3D('',#390,#321,#322);
#254=AXIS2_PLACEMENT_3D('',#391,#323,#324);
#255=AXIS2_PLACEMENT_3D('',#393,#325,#326);
#256=AXIS2_PLACEMENT_3D('',#394,#327,#328);
#257=AXIS2_PLACEMENT_3D('',#396,#329,#330);
#258=AXIS2_PLACEMENT_3D('',#397,#331,#332);
#259=AXIS2_PLACEMENT_3D('',#399,#333,#334);
#260=AXIS2_PLACEMENT_3D('',#400,#335,#336);
#261=AXIS2_PLACEMENT_3D('',#402,#337,#338);
#262=AXIS2_PLACEMENT_3D('',#403,#339,#340);
#263=AXIS2_PLACEMENT_3D('',#405,#341,#342);
#264=AXIS2_PLACEMENT_3D('',#406,#343,#344);
#265=AXIS2_PLACEMENT_3D('placement',#407,#345,#346);
#266=AXIS2_PLACEMENT_3D('',#408,#347,#348);
#267=AXIS2_PLACEMENT_3D('',#409,#349,#350);
#268=AXIS2_PLACEMENT_3D('',#410,#351,#352);
#269=DIRECTION('axis',(0.,0.,1.));
#270=DIRECTION('refdir',(1.,0.,0.));
#271=DIRECTION('center_axis',(1.,-1.42793958151146E-17,0.));
#272=DIRECTION('ref_axis',(0.,0.,-1.));
#273=DIRECTION('center_axis',(1.,-1.42793958151146E-17,0.));
#274=DIRECTION('ref_axis',(0.,1.,0.));
#275=DIRECTION('center_axis',(-1.,1.42793958151146E-17,0.));
#276=DIRECTION('ref_axis',(0.,0.,1.));
#277=DIRECTION('center_axis',(1.,-1.42793958151146E-17,0.));
#278=DIRECTION('ref_axis',(0.,1.,0.));
#279=DIRECTION('center_axis',(1.,-1.42793958151146E-17,0.));
#280=DIRECTION('ref_axis',(0.,1.,0.));
#281=DIRECTION('axis',(0.,0.,1.));
#282=DIRECTION('refdir',(1.,0.,0.));
#283=DIRECTION('center_axis',(-1.,-2.66800423566524E-16,0.));
#284=DIRECTION('ref_axis',(2.66800423566524E-16,-1.,0.));
#285=DIRECTION('center_axis',(1.,2.66800423566524E-16,0.));
#286=DIRECTION('ref_axis',(2.66800423566524E-16,-1.,0.));
#287=DIRECTION('center_axis',(-1.,-2.66800423566524E-16,0.));
#288=DIRECTION('ref_axis',(2.66800423566524E-16,-1.,0.));
#289=DIRECTION('center_axis',(1.,2.66800423566524E-16,0.));
#290=DIRECTION('ref_axis',(-2.66800423566524E-16,1.,0.));
#291=DIRECTION('center_axis',(1.,2.66800423566524E-16,0.));
#292=DIRECTION('ref_axis',(-2.66800423566524E-16,1.,0.));
#293=DIRECTION('center_axis',(1.,2.66800423566524E-16,0.));
#294=DIRECTION('ref_axis',(0.,0.,-1.));
#295=DIRECTION('center_axis',(-1.,-2.66800423566524E-16,0.));
#296=DIRECTION('ref_axis',(0.,0.,1.));
#297=DIRECTION('axis',(0.,0.,1.));
#298=DIRECTION('refdir',(1.,0.,0.));
#299=DIRECTION('center_axis',(-1.,0.,0.));
#300=DIRECTION('ref_axis',(0.,0.,1.));
#301=DIRECTION('center_axis',(1.,0.,0.));
#302=DIRECTION('ref_axis',(0.,0.,1.));
#303=DIRECTION('center_axis',(-1.,0.,0.));
#304=DIRECTION('ref_axis',(0.,0.,1.));
#305=DIRECTION('center_axis',(1.,0.,0.));
#306=DIRECTION('ref_axis',(0.,0.,1.));
#307=DIRECTION('center_axis',(-1.,0.,0.));
#308=DIRECTION('ref_axis',(0.,0.,1.));
#309=DIRECTION('center_axis',(1.,0.,0.));
#310=DIRECTION('ref_axis',(0.,0.,-1.));
#311=DIRECTION('center_axis',(1.,0.,0.));
#312=DIRECTION('ref_axis',(0.,0.,-1.));
#313=DIRECTION('center_axis',(1.,0.,0.));
#314=DIRECTION('ref_axis',(0.,1.,0.));
#315=DIRECTION('center_axis',(-1.,0.,0.));
#316=DIRECTION('ref_axis',(0.,0.,1.));
#317=DIRECTION('center_axis',(1.,0.,0.));
#318=DIRECTION('ref_axis',(0.,1.,0.));
#319=DIRECTION('center_axis',(1.,0.,0.));
#320=DIRECTION('ref_axis',(0.,1.,0.));
#321=DIRECTION('center_axis',(1.,0.,0.));
#322=DIRECTION('ref_axis',(0.,1.,0.));
#323=DIRECTION('center_axis',(-1.,0.,0.));
#324=DIRECTION('ref_axis',(0.,1.,0.));
#325=DIRECTION('center_axis',(1.,0.,0.));
#326=DIRECTION('ref_axis',(0.,1.,0.));
#327=DIRECTION('center_axis',(1.,0.,0.));
#328=DIRECTION('ref_axis',(0.,0.,-1.));
#329=DIRECTION('center_axis',(1.,0.,0.));
#330=DIRECTION('ref_axis',(0.,1.,0.));
#331=DIRECTION('center_axis',(1.,0.,0.));
#332=DIRECTION('ref_axis',(0.,1.,0.));
#333=DIRECTION('center_axis',(1.,0.,0.));
#334=DIRECTION('ref_axis',(0.,1.,0.));
#335=DIRECTION('center_axis',(1.,0.,0.));
#336=DIRECTION('ref_axis',(0.,0.,-1.));
#337=DIRECTION('center_axis',(1.,0.,0.));
#338=DIRECTION('ref_axis',(0.,1.,0.));
#339=DIRECTION('center_axis',(1.,0.,0.));
#340=DIRECTION('ref_axis',(0.,1.,0.));
#341=DIRECTION('center_axis',(1.,0.,0.));
#342=DIRECTION('ref_axis',(0.,1.,0.));
#343=DIRECTION('center_axis',(1.,0.,0.));
#344=DIRECTION('ref_axis',(0.,1.,0.));
#345=DIRECTION('axis',(0.,0.,1.));
#346=DIRECTION('refdir',(1.,0.,0.));
#347=DIRECTION('',(0.,0.,1.));
#348=DIRECTION('',(1.,0.,0.));
#349=DIRECTION('',(0.,0.,-1.));
#350=DIRECTION('',(-1.,2.85587916302291E-17,0.));
#351=DIRECTION('',(-4.71843731305567E-16,1.08420217248554E-19,1.));
#352=DIRECTION('',(1.,8.67361737988399E-19,4.71843731305567E-16));
#353=CARTESIAN_POINT('',(0.,0.,0.));
#354=CARTESIAN_POINT('Origin',(233.5,2.00000000000003,0.));
#355=CARTESIAN_POINT('',(233.5,4.00000000000002,0.));
#356=CARTESIAN_POINT('Origin',(233.5,-9.21021030074892E-16,0.));
#357=CARTESIAN_POINT('Origin',(13.5000000000001,2.,0.));
#358=CARTESIAN_POINT('',(13.5000000000001,3.99999999999999,0.));
#359=CARTESIAN_POINT('Origin',(13.5000000000001,2.22044604925031E-15,0.));
#360=CARTESIAN_POINT('Origin',(123.5,6.4971250958771E-16,0.));
#361=CARTESIAN_POINT('',(0.,0.,0.));
#362=CARTESIAN_POINT('Origin',(9.6,2.56128406623863E-15,0.));
#363=CARTESIAN_POINT('',(9.2,4.,4.89858719658941E-16));
#364=CARTESIAN_POINT('Origin',(9.2,2.45456389681202E-15,0.));
#365=CARTESIAN_POINT('',(10.,3.2,-3.91886975727153E-16));
#366=CARTESIAN_POINT('Origin',(10.,2.66800423566524E-15,0.));
#367=CARTESIAN_POINT('Origin',(5.,1.33400211783262E-15,0.));
#368=CARTESIAN_POINT('',(0.,4.,0.));
#369=CARTESIAN_POINT('Origin',(1.11022302462516E-15,4.93038065763132E-31,
0.));
#370=CARTESIAN_POINT('Origin',(10.,2.,0.));
#371=CARTESIAN_POINT('Origin',(0.,2.,0.));
#372=CARTESIAN_POINT('',(0.,0.,0.));
#373=CARTESIAN_POINT('Origin',(274.249999857886,0.,0.));
#374=CARTESIAN_POINT('',(273.499999857886,4.89858719658941E-16,-4.));
#375=CARTESIAN_POINT('Origin',(273.499999857886,0.,0.));
#376=CARTESIAN_POINT('',(274.999999857886,-3.83801195786457E-16,-3.13397459621561));
#377=CARTESIAN_POINT('Origin',(274.999999857886,0.,0.));
#378=CARTESIAN_POINT('Origin',(264.999999857886,0.,0.));
#379=CARTESIAN_POINT('',(264.999999857886,4.89858719658941E-16,-4.));
#380=CARTESIAN_POINT('Origin',(264.999999857886,0.,0.));
#381=CARTESIAN_POINT('Origin',(274.999999857886,-5.78241158658936E-17,1.56469791703366E-16));
#382=CARTESIAN_POINT('Origin',(264.999999857886,2.34999605021065,0.));
#383=CARTESIAN_POINT('',(265.,6.90000018870318,0.));
#384=CARTESIAN_POINT('Origin',(265.,1.88700308757633E-7,0.));
#385=CARTESIAN_POINT('Origin',(-1.07756913749096E-7,3.45000018870031,0.));
#386=CARTESIAN_POINT('',(-5.55111512312578E-16,6.90000018870031,0.));
#387=CARTESIAN_POINT('Origin',(0.,1.88700308757633E-7,0.));
#388=CARTESIAN_POINT('Origin',(0.500000000000007,1.88700308757633E-7,0.));
#389=CARTESIAN_POINT('',(0.999999999999996,6.90000018870031,0.));
#390=CARTESIAN_POINT('Origin',(0.999999999999979,1.88700308757633E-7,0.));
#391=CARTESIAN_POINT('Origin',(1.33698076456643,1.88700308757633E-7,0.));
#392=CARTESIAN_POINT('',(1.67396152913283,6.22603847084841,0.));
#393=CARTESIAN_POINT('Origin',(1.67396152913284,1.88700308757633E-7,0.));
#394=CARTESIAN_POINT('Origin',(6.04136651409222,1.88700308711987E-7,0.));
#395=CARTESIAN_POINT('',(6.04136645896005,9.50000018869691,0.));
#396=CARTESIAN_POINT('Origin',(6.04136645896006,1.88700308757633E-7,0.));
#397=CARTESIAN_POINT('Origin',(132.5,1.88700308757633E-7,0.));
#398=CARTESIAN_POINT('',(258.95863354104,9.50000018870201,0.));
#399=CARTESIAN_POINT('Origin',(258.95863354104,1.88700308757633E-7,0.));
#400=CARTESIAN_POINT('Origin',(258.95863109536,1.88700308711987E-7,0.));
#401=CARTESIAN_POINT('',(263.326038470849,6.22603028886929,0.));
#402=CARTESIAN_POINT('Origin',(263.326038470849,1.88700308757633E-7,0.));
#403=CARTESIAN_POINT('Origin',(263.663019235424,1.88700308757633E-7,0.));
#404=CARTESIAN_POINT('',(264.,6.90000018870318,0.));
#405=CARTESIAN_POINT('Origin',(264.,1.88700308757633E-7,0.));
#406=CARTESIAN_POINT('Origin',(264.5,1.88700308757633E-7,0.));
#407=CARTESIAN_POINT('',(0.,0.,0.));
#408=CARTESIAN_POINT('',(0.,0.,0.));
#409=CARTESIAN_POINT('',(13.5000000000001,1.94685773111625E-15,0.));
#410=CARTESIAN_POINT('',(233.500000107757,-1.88700306141885E-7,1.10175511310715E-13));
#411=UNCERTAINTY_MEASURE_WITH_UNIT(LENGTH_MEASURE(0.01),#421,
'DISTANCE_ACCURACY_VALUE',
'Maximum model space distance between geometric entities at asserted c
onnectivities');
#412=UNCERTAINTY_MEASURE_WITH_UNIT(LENGTH_MEASURE(0.01),#421,
'DISTANCE_ACCURACY_VALUE',
'Maximum model space distance between geometric entities at asserted c
onnectivities');
#413=UNCERTAINTY_MEASURE_WITH_UNIT(LENGTH_MEASURE(0.01),#421,
'DISTANCE_ACCURACY_VALUE',
'Maximum model space distance between geometric entities at asserted c
onnectivities');
#414=UNCERTAINTY_MEASURE_WITH_UNIT(LENGTH_MEASURE(0.01),#421,
'DISTANCE_ACCURACY_VALUE',
'Maximum model space distance between geometric entities at asserted c
onnectivities');
#415=UNCERTAINTY_MEASURE_WITH_UNIT(LENGTH_MEASURE(1.E-6),#421,
'DISTANCE_ACCURACY_VALUE',
'Maximum model space distance between geometric entities at asserted c
onnectivities');
#416=(
GEOMETRIC_REPRESENTATION_CONTEXT(3)
GLOBAL_UNCERTAINTY_ASSIGNED_CONTEXT((#411))
GLOBAL_UNIT_ASSIGNED_CONTEXT((#421,#424,#422))
REPRESENTATION_CONTEXT('','3D')
);
#417=(
GEOMETRIC_REPRESENTATION_CONTEXT(3)
GLOBAL_UNCERTAINTY_ASSIGNED_CONTEXT((#412))
GLOBAL_UNIT_ASSIGNED_CONTEXT((#421,#424,#422))
REPRESENTATION_CONTEXT('','3D')
);
#418=(
GEOMETRIC_REPRESENTATION_CONTEXT(3)
GLOBAL_UNCERTAINTY_ASSIGNED_CONTEXT((#413))
GLOBAL_UNIT_ASSIGNED_CONTEXT((#421,#424,#422))
REPRESENTATION_CONTEXT('','3D')
);
#419=(
GEOMETRIC_REPRESENTATION_CONTEXT(3)
GLOBAL_UNCERTAINTY_ASSIGNED_CONTEXT((#414))
GLOBAL_UNIT_ASSIGNED_CONTEXT((#421,#424,#422))
REPRESENTATION_CONTEXT('','3D')
);
#420=(
GEOMETRIC_REPRESENTATION_CONTEXT(3)
GLOBAL_UNCERTAINTY_ASSIGNED_CONTEXT((#415))
GLOBAL_UNIT_ASSIGNED_CONTEXT((#421,#424,#422))
REPRESENTATION_CONTEXT('','3D')
);
#421=(
LENGTH_UNIT()
NAMED_UNIT(*)
SI_UNIT(.MILLI.,.METRE.)
);
#422=(
NAMED_UNIT(*)
SI_UNIT($,.STERADIAN.)
SOLID_ANGLE_UNIT()
);
#423=DIMENSIONAL_EXPONENTS(0.,0.,0.,0.,0.,0.,0.);
#424=(
CONVERSION_BASED_UNIT('degree',#426)
NAMED_UNIT(#423)
PLANE_ANGLE_UNIT()
);
#425=(
NAMED_UNIT(*)
PLANE_ANGLE_UNIT()
SI_UNIT($,.RADIAN.)
);
#426=PLANE_ANGLE_MEASURE_WITH_UNIT(PLANE_ANGLE_MEASURE(0.01745329252),#425);
#427=SHAPE_DEFINITION_REPRESENTATION(#431,#438);
#428=SHAPE_DEFINITION_REPRESENTATION(#432,#439);
#429=SHAPE_DEFINITION_REPRESENTATION(#433,#440);
#430=SHAPE_DEFINITION_REPRESENTATION(#434,#441);
#431=PRODUCT_DEFINITION_SHAPE('',$,#443);
#432=PRODUCT_DEFINITION_SHAPE('',$,#444);
#433=PRODUCT_DEFINITION_SHAPE('',$,#445);
#434=PRODUCT_DEFINITION_SHAPE('',$,#446);
#435=PRODUCT_DEFINITION_SHAPE($,$,#20);
#436=PRODUCT_DEFINITION_SHAPE($,$,#21);
#437=PRODUCT_DEFINITION_SHAPE($,$,#22);
#438=SHAPE_REPRESENTATION('',(#227),#416);
#439=SHAPE_REPRESENTATION('',(#233),#417);
#440=SHAPE_REPRESENTATION('',(#241),#418);
#441=SHAPE_REPRESENTATION('',(#265,#266,#267,#268),#419);
#442=PRODUCT_DEFINITION_CONTEXT('part definition',#456,'design');
#443=PRODUCT_DEFINITION('ENG-001076','ENG-001076',#447,#442);
#444=PRODUCT_DEFINITION('Gew-04','Gew-04',#448,#442);
#445=PRODUCT_DEFINITION('ROH_-X-00161-EM','ROH_-X-00161-EM',#449,#442);
#446=PRODUCT_DEFINITION('Baugruppe1','Baugruppe1',#450,#442);
#447=PRODUCT_DEFINITION_FORMATION('',$,#458);
#448=PRODUCT_DEFINITION_FORMATION('',$,#459);
#449=PRODUCT_DEFINITION_FORMATION('',$,#460);
#450=PRODUCT_DEFINITION_FORMATION('',$,#461);
#451=PRODUCT_RELATED_PRODUCT_CATEGORY('ENG-001076','ENG-001076',(#458));
#452=PRODUCT_RELATED_PRODUCT_CATEGORY('Gew-04','Gew-04',(#459));
#453=PRODUCT_RELATED_PRODUCT_CATEGORY('ROH_-X-00161-EM',
'ROH_-X-00161-EM',(#460));
#454=PRODUCT_RELATED_PRODUCT_CATEGORY('Baugruppe1','Baugruppe1',(#461));
#455=APPLICATION_PROTOCOL_DEFINITION('international standard',
'automotive_design',2009,#456);
#456=APPLICATION_CONTEXT(
'Core Data for Automotive Mechanical Design Process');
#457=PRODUCT_CONTEXT('part definition',#456,'mechanical');
#458=PRODUCT('ENG-001076','ENG-001076',$,(#457));
#459=PRODUCT('Gew-04','Gew-04',$,(#457));
#460=PRODUCT('ROH_-X-00161-EM','ROH_-X-00161-EM',$,(#457));
#461=PRODUCT('Baugruppe1','Baugruppe1',$,(#457));
#462=PRESENTATION_STYLE_ASSIGNMENT((#465));
#463=PRESENTATION_STYLE_ASSIGNMENT((#466));
#464=PRESENTATION_STYLE_ASSIGNMENT((#467));
#465=SURFACE_STYLE_USAGE(.BOTH.,#468);
#466=SURFACE_STYLE_USAGE(.BOTH.,#469);
#467=SURFACE_STYLE_USAGE(.BOTH.,#470);
#468=SURFACE_SIDE_STYLE('',(#471));
#469=SURFACE_SIDE_STYLE('',(#472));
#470=SURFACE_SIDE_STYLE('',(#473));
#471=SURFACE_STYLE_FILL_AREA(#474);
#472=SURFACE_STYLE_FILL_AREA(#475);
#473=SURFACE_STYLE_FILL_AREA(#476);
#474=FILL_AREA_STYLE('',(#477));
#475=FILL_AREA_STYLE('',(#478));
#476=FILL_AREA_STYLE('',(#479));
#477=FILL_AREA_STYLE_COLOUR('',#480);
#478=FILL_AREA_STYLE_COLOUR('',#481);
#479=FILL_AREA_STYLE_COLOUR('',#482);
#480=COLOUR_RGB('',0.63921568627451,0.63921568627451,0.686274509803922);
#481=COLOUR_RGB('',0.32156862745098,0.32156862745098,0.32156862745098);
#482=COLOUR_RGB('',0.752941176470588,0.752941176470588,0.752941176470588);
ENDSEC;
END-ISO-10303-21;
